ISO-10303-21;
HEADER;
FILE_DESCRIPTION((''),'2;1');
FILE_NAME('_X2_4F53_X0___1_','2024-03-19T',('13001'),(''),
'PRO/ENGINEER BY PARAMETRIC TECHNOLOGY CORPORATION, 2012480',
'PRO/ENGINEER BY PARAMETRIC TECHNOLOGY CORPORATION, 2012480','');
FILE_SCHEMA(('CONFIG_CONTROL_DESIGN'));
ENDSEC;
DATA;
#2=DIRECTION('',(-6.595337490855E-13,-1.E0,-6.019799767528E-12));
#3=VECTOR('',#2,1.400004603859E1);
#4=CARTESIAN_POINT('',(1.304412068961E1,2.237518407982E1,4.979500000007E1));
#5=LINE('',#4,#3);
#6=CARTESIAN_POINT('',(1.243216722166E1,2.237518407982E1,4.960786189305E1));
#7=DIRECTION('',(1.708122564390E-13,1.E0,0.E0));
#8=DIRECTION('',(6.427876096282E-1,-1.136868377216E-13,-7.660444431680E-1));
#9=AXIS2_PLACEMENT_3D('',#6,#7,#8);
#11=DIRECTION('',(-7.660444430384E-1,-4.402643304965E-13,-6.427876097826E-1));
#12=VECTOR('',#11,5.890736100741E-1);
#13=CARTESIAN_POINT('',(1.304412068961E1,2.237518407982E1,4.979500000007E1));
#14=LINE('',#13,#12);
#15=DIRECTION('',(-6.130183806477E-12,3.392779624760E-13,-1.E0));
#16=VECTOR('',#15,1.685894651431E0);
#17=CARTESIAN_POINT('',(1.288216722168E1,2.237518407982E1,5.293089465157E1));
#18=LINE('',#17,#16);
#19=DIRECTION('',(7.660444431143E-1,8.466493911496E-14,-6.427876096921E-1));
#20=VECTOR('',#19,3.776583724437E-1);
#21=CARTESIAN_POINT('',(1.259286412407E1,2.237518407982E1,5.317364877407E1));
#22=LINE('',#21,#20);
#23=CARTESIAN_POINT('',(1.243216722169E1,2.237518407982E1,5.298213766327E1));
#24=DIRECTION('',(1.708122564390E-13,1.E0,0.E0));
#25=DIRECTION('',(-1.E0,1.705302565824E-13,-4.912692475045E-10));
#26=AXIS2_PLACEMENT_3D('',#23,#24,#25);
#28=DIRECTION('',(7.020616103538E-12,3.470298541881E-12,1.E0));
#29=VECTOR('',#28,3.374275770228E0);
#30=CARTESIAN_POINT('',(1.218216722166E1,8.375138041222E0,4.960786189306E1));
#31=LINE('',#30,#29);
#32=DIRECTION('',(-7.019563221815E-12,-3.471351423778E-12,-1.E0));
#33=VECTOR('',#32,3.374275770172E0);
#34=CARTESIAN_POINT('',(1.218216722168E1,2.237518407983E1,5.298213766320E1));
#35=LINE('',#34,#33);
#36=DIRECTION('',(7.660444431047E-1,-7.538772783389E-14,6.427876097035E-1));
#37=VECTOR('',#36,5.890736100027E-1);
#38=CARTESIAN_POINT('',(1.259286412408E1,8.375138041228E0,4.941635078228E1));
#39=LINE('',#38,#37);
#40=CARTESIAN_POINT('',(1.243216722165E1,8.375138041228E0,4.960786189305E1));
#41=DIRECTION('',(-1.708122564390E-13,-1.E0,0.E0));
#42=DIRECTION('',(-1.E0,1.705302565824E-13,-1.937507931871E-10));
#43=AXIS2_PLACEMENT_3D('',#40,#41,#42);
#45=CARTESIAN_POINT('',(1.243216722168E1,8.375138041228E0,5.298213766327E1));
#46=DIRECTION('',(-1.708122564390E-13,-1.E0,0.E0));
#47=DIRECTION('',(6.427876096565E-1,-1.065814103640E-13,7.660444431442E-1));
#48=AXIS2_PLACEMENT_3D('',#45,#46,#47);
#50=DIRECTION('',(-7.660444431134E-1,6.585050820565E-14,6.427876096932E-1));
#51=VECTOR('',#50,3.776583724144E-1);
#52=CARTESIAN_POINT('',(1.288216722168E1,8.375138041228E0,5.293089465157E1));
#53=LINE('',#52,#51);
#54=DIRECTION('',(2.168417039606E-13,1.E0,-2.123500735801E-12));
#55=VECTOR('',#54,1.400004603859E1);
#56=CARTESIAN_POINT('',(1.218216722166E1,8.375138041222E0,4.960786189306E1));
#57=LINE('',#56,#55);
#58=DIRECTION('',(4.590598507486E-13,-1.E0,5.892410024535E-13));
#59=VECTOR('',#58,1.400004603859E1);
#60=CARTESIAN_POINT('',(1.259286412407E1,2.237518407982E1,4.941635078227E1));
#61=LINE('',#60,#59);
#62=DIRECTION('',(-2.167148217464E-13,-1.E0,6.118767894555E-12));
#63=VECTOR('',#62,1.400004603859E1);
#64=CARTESIAN_POINT('',(1.218216722168E1,2.237518407983E1,5.298213766320E1));
#65=LINE('',#64,#63);
#66=DIRECTION('',(-1.527915622641E-12,1.E0,1.395196826653E-12));
#67=VECTOR('',#66,1.400004603859E1);
#68=CARTESIAN_POINT('',(1.259286412410E1,8.375138041228E0,5.317364877405E1));
#69=LINE('',#68,#67);
#70=DIRECTION('',(1.041702978067E-13,1.E0,7.511427076926E-14));
#71=VECTOR('',#70,1.400004603859E1);
#72=CARTESIAN_POINT('',(1.288216722168E1,8.375138041228E0,5.293089465157E1));
#73=LINE('',#72,#71);
#74=DIRECTION('',(-6.131237464770E-12,3.371706459402E-14,-1.E0));
#75=VECTOR('',#74,1.685894651425E0);
#76=CARTESIAN_POINT('',(1.288216722168E1,8.375138041228E0,5.293089465157E1));
#77=LINE('',#76,#75);
#78=DIRECTION('',(1.042971800208E-13,1.E0,-4.075456718089E-13));
#79=VECTOR('',#78,1.400004603859E1);
#80=CARTESIAN_POINT('',(1.288216722167E1,8.375138041228E0,5.124500000014E1));
#81=LINE('',#80,#79);
#82=DIRECTION('',(2.037728359045E-13,1.E0,-3.878027992892E-12));
#83=VECTOR('',#82,1.400004603859E1);
#84=CARTESIAN_POINT('',(1.358216722167E1,8.375138041230E0,5.124500000016E1));
#85=LINE('',#84,#83);
#86=DIRECTION('',(1.E0,3.479121752606E-12,2.229074068190E-11));
#87=VECTOR('',#86,6.999999999982E-1);
#88=CARTESIAN_POINT('',(1.288216722167E1,8.375138041228E0,5.124500000014E1));
#89=LINE('',#88,#87);
#90=DIRECTION('',(-1.E0,-2.182381259836E-12,4.712928460194E-11));
#91=VECTOR('',#90,6.999999999996E-1);
#92=CARTESIAN_POINT('',(1.358216722167E1,2.237518407982E1,5.124500000010E1));
#93=LINE('',#92,#91);
#94=DIRECTION('',(2.753965637811E-12,3.638468836431E-12,1.E0));
#95=VECTOR('',#94,1.450000000053E0);
#96=CARTESIAN_POINT('',(1.358216722167E1,2.237518407982E1,4.979500000005E1));
#97=LINE('',#96,#95);
#98=DIRECTION('',(2.040266003327E-13,1.E0,2.549317446446E-12));
#99=VECTOR('',#98,1.400004603859E1);
#100=CARTESIAN_POINT('',(1.358216722166E1,8.375138041225E0,4.979500000002E1));
#101=LINE('',#100,#99);
#102=DIRECTION('',(-2.753965637640E-12,-3.491459994339E-12,-1.E0));
#103=VECTOR('',#102,1.450000000143E0);
#104=CARTESIAN_POINT('',(1.358216722167E1,8.375138041230E0,5.124500000016E1));
#105=LINE('',#104,#103);
#106=DIRECTION('',(1.E0,-6.193600798795E-12,-3.972356333215E-11));
#107=VECTOR('',#106,5.380465320534E-1);
#108=CARTESIAN_POINT('',(1.304412068961E1,2.237518407982E1,4.979500000007E1));
#109=LINE('',#108,#107);
#110=DIRECTION('',(-1.E0,4.790466289417E-12,-5.057887219425E-11));
#111=VECTOR('',#110,5.380465320598E-1);
#112=CARTESIAN_POINT('',(1.358216722166E1,8.375138041225E0,4.979500000002E1));
#113=LINE('',#112,#111);
#114=CARTESIAN_POINT('',(1.304412068961E1,2.237518407982E1,4.979500000007E1));
#115=CARTESIAN_POINT('',(1.259286412407E1,2.237518407982E1,4.941635078227E1));
#116=VERTEX_POINT('',#114);
#117=VERTEX_POINT('',#115);
#118=CARTESIAN_POINT('',(1.304412068960E1,8.375138041228E0,4.979499999999E1));
#119=VERTEX_POINT('',#118);
#120=CARTESIAN_POINT('',(1.259286412408E1,8.375138041228E0,4.941635078228E1));
#121=VERTEX_POINT('',#120);
#122=CARTESIAN_POINT('',(1.358216722167E1,2.237518407982E1,4.979500000005E1));
#123=CARTESIAN_POINT('',(1.358216722167E1,2.237518407982E1,5.124500000010E1));
#124=VERTEX_POINT('',#122);
#125=VERTEX_POINT('',#123);
#126=CARTESIAN_POINT('',(1.358216722167E1,8.375138041230E0,5.124500000016E1));
#127=VERTEX_POINT('',#126);
#128=CARTESIAN_POINT('',(1.358216722166E1,8.375138041225E0,4.979500000002E1));
#129=VERTEX_POINT('',#128);
#130=CARTESIAN_POINT('',(1.288216722167E1,2.237518407982E1,5.124500000014E1));
#131=VERTEX_POINT('',#130);
#132=CARTESIAN_POINT('',(1.288216722167E1,8.375138041228E0,5.124500000014E1));
#133=VERTEX_POINT('',#132);
#134=CARTESIAN_POINT('',(1.288216722168E1,8.375138041228E0,5.293089465157E1));
#135=VERTEX_POINT('',#134);
#136=CARTESIAN_POINT('',(1.288216722168E1,2.237518407982E1,5.293089465157E1));
#137=VERTEX_POINT('',#136);
#138=CARTESIAN_POINT('',(1.259286412410E1,8.375138041228E0,5.317364877405E1));
#139=VERTEX_POINT('',#138);
#140=CARTESIAN_POINT('',(1.259286412407E1,2.237518407982E1,5.317364877407E1));
#141=VERTEX_POINT('',#140);
#142=CARTESIAN_POINT('',(1.218216722168E1,2.237518407983E1,5.298213766320E1));
#143=CARTESIAN_POINT('',(1.218216722168E1,8.375138041234E0,5.298213766328E1));
#144=VERTEX_POINT('',#142);
#145=VERTEX_POINT('',#143);
#146=CARTESIAN_POINT('',(1.218216722166E1,8.375138041222E0,4.960786189306E1));
#147=VERTEX_POINT('',#146);
#148=CARTESIAN_POINT('',(1.218216722166E1,2.237518407982E1,4.960786189303E1));
#149=VERTEX_POINT('',#148);
#150=CARTESIAN_POINT('',(1.304412068959E1,8.227838041228E0,4.979499999998E1));
#151=DIRECTION('',(-6.427876097051E-1,1.097899441206E-13,7.660444431034E-1));
#152=DIRECTION('',(-7.660444431034E-1,1.308425603284E-13,-6.427876097051E-1));
#153=AXIS2_PLACEMENT_3D('',#150,#151,#152);
#154=PLANE('',#153);
#156=ORIENTED_EDGE('',*,*,#155,.T.);
#158=ORIENTED_EDGE('',*,*,#157,.T.);
#160=ORIENTED_EDGE('',*,*,#159,.T.);
#162=ORIENTED_EDGE('',*,*,#161,.F.);
#163=EDGE_LOOP('',(#156,#158,#160,#162));
#164=FACE_OUTER_BOUND('',#163,.F.);
#165=ADVANCED_FACE('',(#164),#154,.F.);
#166=CARTESIAN_POINT('',(1.218216722164E1,2.237518407982E1,4.697586571623E1));
#167=DIRECTION('',(-1.708028320119E-13,-1.E0,0.E0));
#168=DIRECTION('',(6.274472813236E-12,0.E0,1.E0));
#169=AXIS2_PLACEMENT_3D('',#166,#167,#168);
#170=PLANE('',#169);
#172=ORIENTED_EDGE('',*,*,#171,.T.);
#174=ORIENTED_EDGE('',*,*,#173,.F.);
#175=ORIENTED_EDGE('',*,*,#155,.F.);
#177=ORIENTED_EDGE('',*,*,#176,.T.);
#179=ORIENTED_EDGE('',*,*,#178,.T.);
#181=ORIENTED_EDGE('',*,*,#180,.T.);
#183=ORIENTED_EDGE('',*,*,#182,.F.);
#185=ORIENTED_EDGE('',*,*,#184,.F.);
#187=ORIENTED_EDGE('',*,*,#186,.F.);
#188=EDGE_LOOP('',(#172,#174,#175,#177,#179,#181,#183,#185,#187));
#189=FACE_OUTER_BOUND('',#188,.F.);
#190=ADVANCED_FACE('',(#189),#170,.F.);
#191=CARTESIAN_POINT('',(1.218216722166E1,2.237518407978E1,4.964500000010E1));
#192=DIRECTION('',(-1.E0,1.708028320119E-13,6.274472813236E-12));
#193=DIRECTION('',(-6.274472813238E-12,-1.041237825117E-11,-1.E0));
#194=AXIS2_PLACEMENT_3D('',#191,#192,#193);
#195=PLANE('',#194);
#197=ORIENTED_EDGE('',*,*,#196,.F.);
#199=ORIENTED_EDGE('',*,*,#198,.T.);
#200=ORIENTED_EDGE('',*,*,#171,.F.);
#202=ORIENTED_EDGE('',*,*,#201,.T.);
#203=EDGE_LOOP('',(#197,#199,#200,#202));
#204=FACE_OUTER_BOUND('',#203,.F.);
#205=ADVANCED_FACE('',(#204),#195,.T.);
#206=CARTESIAN_POINT('',(1.218216722169E1,8.375138041228E0,5.453242116522E1));
#207=DIRECTION('',(1.708028320119E-13,1.E0,0.E0));
#208=DIRECTION('',(-6.274472813236E-12,0.E0,-1.E0));
#209=AXIS2_PLACEMENT_3D('',#206,#207,#208);
#210=PLANE('',#209);
#211=ORIENTED_EDGE('',*,*,#159,.F.);
#213=ORIENTED_EDGE('',*,*,#212,.F.);
#214=ORIENTED_EDGE('',*,*,#196,.T.);
#216=ORIENTED_EDGE('',*,*,#215,.F.);
#218=ORIENTED_EDGE('',*,*,#217,.F.);
#220=ORIENTED_EDGE('',*,*,#219,.T.);
#222=ORIENTED_EDGE('',*,*,#221,.T.);
#224=ORIENTED_EDGE('',*,*,#223,.T.);
#226=ORIENTED_EDGE('',*,*,#225,.T.);
#227=EDGE_LOOP('',(#211,#213,#214,#216,#218,#220,#222,#224,#226));
#228=FACE_OUTER_BOUND('',#227,.F.);
#229=ADVANCED_FACE('',(#228),#210,.F.);
#230=CARTESIAN_POINT('',(1.243216722166E1,4.081766437589E1,4.960786189305E1));
#231=DIRECTION('',(-1.708122564390E-13,-1.E0,0.E0));
#232=DIRECTION('',(-1.E0,1.708122564390E-13,6.252776074689E-12));
#233=AXIS2_PLACEMENT_3D('',#230,#231,#232);
#234=CYLINDRICAL_SURFACE('',#233,2.5E-1);
#235=ORIENTED_EDGE('',*,*,#198,.F.);
#236=ORIENTED_EDGE('',*,*,#212,.T.);
#237=ORIENTED_EDGE('',*,*,#157,.F.);
#238=ORIENTED_EDGE('',*,*,#173,.T.);
#239=EDGE_LOOP('',(#235,#236,#237,#238));
#240=FACE_OUTER_BOUND('',#239,.F.);
#241=ADVANCED_FACE('',(#240),#234,.T.);
#242=CARTESIAN_POINT('',(1.243216722168E1,-1.021464225484E1,5.298213766327E1));
#243=DIRECTION('',(1.708122564390E-13,1.E0,0.E0));
#244=DIRECTION('',(-1.E0,1.708122564390E-13,6.252776074689E-12));
#245=AXIS2_PLACEMENT_3D('',#242,#243,#244);
#246=CYLINDRICAL_SURFACE('',#245,2.5E-1);
#247=ORIENTED_EDGE('',*,*,#201,.F.);
#248=ORIENTED_EDGE('',*,*,#186,.T.);
#250=ORIENTED_EDGE('',*,*,#249,.F.);
#251=ORIENTED_EDGE('',*,*,#215,.T.);
#252=EDGE_LOOP('',(#247,#248,#250,#251));
#253=FACE_OUTER_BOUND('',#252,.F.);
#254=ADVANCED_FACE('',(#253),#246,.T.);
#255=CARTESIAN_POINT('',(1.218216722168E1,8.227838041228E0,5.351826439339E1));
#256=DIRECTION('',(-6.427876096865E-1,1.097899441158E-13,-7.660444431190E-1));
#257=DIRECTION('',(7.660444431190E-1,-1.308425603324E-13,-6.427876096865E-1));
#258=AXIS2_PLACEMENT_3D('',#255,#256,#257);
#259=PLANE('',#258);
#260=ORIENTED_EDGE('',*,*,#217,.T.);
#261=ORIENTED_EDGE('',*,*,#249,.T.);
#262=ORIENTED_EDGE('',*,*,#184,.T.);
#264=ORIENTED_EDGE('',*,*,#263,.F.);
#265=EDGE_LOOP('',(#260,#261,#262,#264));
#266=FACE_OUTER_BOUND('',#265,.F.);
#267=ADVANCED_FACE('',(#266),#259,.F.);
#268=CARTESIAN_POINT('',(1.288216722168E1,9.227838041228E0,5.303634898506E1));
#269=DIRECTION('',(-1.E0,1.708028320119E-13,6.274472813236E-12));
#270=DIRECTION('',(-6.274472813236E-12,0.E0,-1.E0));
#271=AXIS2_PLACEMENT_3D('',#268,#269,#270);
#272=PLANE('',#271);
#273=ORIENTED_EDGE('',*,*,#219,.F.);
#274=ORIENTED_EDGE('',*,*,#263,.T.);
#275=ORIENTED_EDGE('',*,*,#182,.T.);
#277=ORIENTED_EDGE('',*,*,#276,.F.);
#278=EDGE_LOOP('',(#273,#274,#275,#277));
#279=FACE_OUTER_BOUND('',#278,.F.);
#280=ADVANCED_FACE('',(#279),#272,.F.);
#281=CARTESIAN_POINT('',(1.318216722167E1,9.227838041228E0,5.124500000014E1));
#282=DIRECTION('',(-6.274472813236E-12,0.E0,-1.E0));
#283=DIRECTION('',(1.E0,-1.708028320119E-13,-6.274472813236E-12));
#284=AXIS2_PLACEMENT_3D('',#281,#282,#283);
#285=PLANE('',#284);
#287=ORIENTED_EDGE('',*,*,#286,.F.);
#288=ORIENTED_EDGE('',*,*,#221,.F.);
#289=ORIENTED_EDGE('',*,*,#276,.T.);
#290=ORIENTED_EDGE('',*,*,#180,.F.);
#291=EDGE_LOOP('',(#287,#288,#289,#290));
#292=FACE_OUTER_BOUND('',#291,.F.);
#293=ADVANCED_FACE('',(#292),#285,.F.);
#294=CARTESIAN_POINT('',(1.358216722167E1,2.237518407979E1,5.114500000196E1));
#295=DIRECTION('',(1.E0,-1.708036704284E-13,-3.137264377653E-12));
#296=DIRECTION('',(3.137264377655E-12,1.041237911853E-11,1.E0));
#297=AXIS2_PLACEMENT_3D('',#294,#295,#296);
#298=PLANE('',#297);
#299=ORIENTED_EDGE('',*,*,#178,.F.);
#301=ORIENTED_EDGE('',*,*,#300,.F.);
#302=ORIENTED_EDGE('',*,*,#223,.F.);
#303=ORIENTED_EDGE('',*,*,#286,.T.);
#304=EDGE_LOOP('',(#299,#301,#302,#303));
#305=FACE_OUTER_BOUND('',#304,.F.);
#306=ADVANCED_FACE('',(#305),#298,.T.);
#307=CARTESIAN_POINT('',(1.218216722166E1,2.237518407980E1,4.979500000015E1));
#308=DIRECTION('',(6.274500383147E-12,-1.168547394276E-11,1.E0));
#309=DIRECTION('',(-1.E0,1.708028320101E-13,6.274500383149E-12));
#310=AXIS2_PLACEMENT_3D('',#307,#308,#309);
#311=PLANE('',#310);
#312=ORIENTED_EDGE('',*,*,#300,.T.);
#313=ORIENTED_EDGE('',*,*,#176,.F.);
#314=ORIENTED_EDGE('',*,*,#161,.T.);
#315=ORIENTED_EDGE('',*,*,#225,.F.);
#316=EDGE_LOOP('',(#312,#313,#314,#315));
#317=FACE_OUTER_BOUND('',#316,.F.);
#318=ADVANCED_FACE('',(#317),#311,.F.);
#319=CLOSED_SHELL('',(#165,#190,#205,#229,#241,#254,#267,#280,#293,#306,#318));
#320=MANIFOLD_SOLID_BREP('',#319);
#322=DIMENSIONAL_EXPONENTS(0.E0,0.E0,0.E0,0.E0,0.E0,0.E0,0.E0);
#324=PLANE_ANGLE_MEASURE_WITH_UNIT(PLANE_ANGLE_MEASURE(1.745329251994E-2),#323);
#325=(CONVERSION_BASED_UNIT('DEGREE',#324)NAMED_UNIT(*)PLANE_ANGLE_UNIT());
#327=UNCERTAINTY_MEASURE_WITH_UNIT(LENGTH_MEASURE(1.459326226639E-3),#321,
'closure',
'Maximum model space distance between geometric entities at asserted connectivities');
#328=(GEOMETRIC_REPRESENTATION_CONTEXT(3)GLOBAL_UNCERTAINTY_ASSIGNED_CONTEXT((
#327))GLOBAL_UNIT_ASSIGNED_CONTEXT((#321,#325,#326))REPRESENTATION_CONTEXT
('ID1','3'));
#330=APPLICATION_CONTEXT(
'CONFIGURATION CONTROLLED 3D DESIGNS OF MECHANICAL PARTS AND ASSEMBLIES');
#331=APPLICATION_PROTOCOL_DEFINITION('international standard',
'config_control_design',1994,#330);
#332=DESIGN_CONTEXT('',#330,'design');
#333=MECHANICAL_CONTEXT('',#330,'mechanical');
#334=PRODUCT('_X2_4F53_X0___1_','_X2_4F53_X0___1_','NOT SPECIFIED',(#333));
#335=PRODUCT_DEFINITION_FORMATION_WITH_SPECIFIED_SOURCE('1','LAST_VERSION',#334,
.MADE.);
#339=PRODUCT_CATEGORY('part','');
#340=PRODUCT_RELATED_PRODUCT_CATEGORY('detail','',(#334));
#341=PRODUCT_CATEGORY_RELATIONSHIP('','',#339,#340);
#342=SECURITY_CLASSIFICATION_LEVEL('unclassified');
#343=SECURITY_CLASSIFICATION('','',#342);
#344=CC_DESIGN_SECURITY_CLASSIFICATION(#343,(#335));
#345=APPROVAL_STATUS('approved');
#346=APPROVAL(#345,'');
#347=CC_DESIGN_APPROVAL(#346,(#343,#335,#336));
#348=CALENDAR_DATE(124,19,3);
#349=COORDINATED_UNIVERSAL_TIME_OFFSET(8,0,.AHEAD.);
#350=LOCAL_TIME(16,41,3.7E1,#349);
#351=DATE_AND_TIME(#348,#350);
#352=APPROVAL_DATE_TIME(#351,#346);
#353=DATE_TIME_ROLE('creation_date');
#354=CC_DESIGN_DATE_AND_TIME_ASSIGNMENT(#351,#353,(#336));
#355=DATE_TIME_ROLE('classification_date');
#356=CC_DESIGN_DATE_AND_TIME_ASSIGNMENT(#351,#355,(#343));
#357=PERSON('UNSPECIFIED','UNSPECIFIED',$,$,$,$);
#358=ORGANIZATION('UNSPECIFIED','UNSPECIFIED','UNSPECIFIED');
#359=PERSON_AND_ORGANIZATION(#357,#358);
#360=APPROVAL_ROLE('approver');
#361=APPROVAL_PERSON_ORGANIZATION(#359,#346,#360);
#362=PERSON_AND_ORGANIZATION_ROLE('creator');
#363=CC_DESIGN_PERSON_AND_ORGANIZATION_ASSIGNMENT(#359,#362,(#335,#336));
#364=PERSON_AND_ORGANIZATION_ROLE('design_supplier');
#365=CC_DESIGN_PERSON_AND_ORGANIZATION_ASSIGNMENT(#359,#364,(#335));
#366=PERSON_AND_ORGANIZATION_ROLE('classification_officer');
#367=CC_DESIGN_PERSON_AND_ORGANIZATION_ASSIGNMENT(#359,#366,(#343));
#368=PERSON_AND_ORGANIZATION_ROLE('design_owner');
#369=CC_DESIGN_PERSON_AND_ORGANIZATION_ASSIGNMENT(#359,#368,(#334));
#10=CIRCLE('',#9,2.5E-1);
#27=CIRCLE('',#26,2.5E-1);
#44=CIRCLE('',#43,2.5E-1);
#49=CIRCLE('',#48,2.5E-1);
#155=EDGE_CURVE('',#116,#117,#14,.T.);
#157=EDGE_CURVE('',#117,#121,#61,.T.);
#159=EDGE_CURVE('',#121,#119,#39,.T.);
#161=EDGE_CURVE('',#116,#119,#5,.T.);
#171=EDGE_CURVE('',#144,#149,#35,.T.);
#173=EDGE_CURVE('',#117,#149,#10,.T.);
#176=EDGE_CURVE('',#116,#124,#109,.T.);
#178=EDGE_CURVE('',#124,#125,#97,.T.);
#180=EDGE_CURVE('',#125,#131,#93,.T.);
#182=EDGE_CURVE('',#137,#131,#18,.T.);
#184=EDGE_CURVE('',#141,#137,#22,.T.);
#186=EDGE_CURVE('',#144,#141,#27,.T.);
#196=EDGE_CURVE('',#147,#145,#31,.T.);
#198=EDGE_CURVE('',#147,#149,#57,.T.);
#201=EDGE_CURVE('',#144,#145,#65,.T.);
#212=EDGE_CURVE('',#147,#121,#44,.T.);
#215=EDGE_CURVE('',#139,#145,#49,.T.);
#217=EDGE_CURVE('',#135,#139,#53,.T.);
#219=EDGE_CURVE('',#135,#133,#77,.T.);
#221=EDGE_CURVE('',#133,#127,#89,.T.);
#223=EDGE_CURVE('',#127,#129,#105,.T.);
#225=EDGE_CURVE('',#129,#119,#113,.T.);
#249=EDGE_CURVE('',#139,#141,#69,.T.);
#263=EDGE_CURVE('',#135,#137,#73,.T.);
#276=EDGE_CURVE('',#133,#131,#81,.T.);
#286=EDGE_CURVE('',#127,#125,#85,.T.);
#300=EDGE_CURVE('',#129,#124,#101,.T.);
#321=(LENGTH_UNIT()NAMED_UNIT(*)SI_UNIT(.MILLI.,.METRE.));
#323=(NAMED_UNIT(*)PLANE_ANGLE_UNIT()SI_UNIT($,.RADIAN.));
#326=(NAMED_UNIT(*)SI_UNIT($,.STERADIAN.)SOLID_ANGLE_UNIT());
#329=ADVANCED_BREP_SHAPE_REPRESENTATION('',(#320),#328);
#336=PRODUCT_DEFINITION('design','',#335,#332);
#337=PRODUCT_DEFINITION_SHAPE('','SHAPE FOR _X2_4F53_X0___1_.',#336);
#338=SHAPE_DEFINITION_REPRESENTATION(#337,#329);
ENDSEC;
END-ISO-10303-21;
