ISO-10303-21;
HEADER;
/* Generated by software containing ST-Developer
 * from STEP Tools, Inc. (www.steptools.com) 
 */
/* OPTION: using custom schema-name function */

FILE_DESCRIPTION(
/* description */ (''),
/* implementation_level */ '2;1');

FILE_NAME(
/* name */ '3D_1021010151001_WNP-M20_V1.0_stp.stp',
/* time_stamp */ '2024-02-29T14:47:24+08:00',
/* author */ (''),
/* organization */ (''),
/* preprocessor_version */ 'ST-DEVELOPER v18.1',
/* originating_system */ 'SIEMENS PLM Software NX 1980',
/* authorisation */ '');

FILE_SCHEMA (('AUTOMOTIVE_DESIGN { 1 0 10303 214 3 1 1 1 }'));
ENDSEC;

DATA;
#10=SHAPE_REPRESENTATION_RELATIONSHIP('None',
'relationship between 3D_1021010151001_WNP-M20_V1.0_stp-None and 3D_10
21010151001_WNP-M20_V1.0_stp-None',#22,#11);
#11=ADVANCED_BREP_SHAPE_REPRESENTATION(
'3D_1021010151001_WNP-M20_V1.0_stp-None',(#32),#595);
#12=SHAPE_DEFINITION_REPRESENTATION(#13,#22);
#13=PRODUCT_DEFINITION_SHAPE('','',#14);
#14=PRODUCT_DEFINITION(' ','',#16,#15);
#15=PRODUCT_DEFINITION_CONTEXT('part definition',#21,'design');
#16=PRODUCT_DEFINITION_FORMATION_WITH_SPECIFIED_SOURCE(' ',' ',#18,
 .NOT_KNOWN.);
#17=PRODUCT_RELATED_PRODUCT_CATEGORY('part','',(#18));
#18=PRODUCT('3D_1021010151001_WNP-M20_V1.0_stp',
'3D_1021010151001_WNP-M20_V1.0_stp',' ',(#19));
#19=PRODUCT_CONTEXT(' ',#21,'mechanical');
#20=APPLICATION_PROTOCOL_DEFINITION('international standard',
'automotive_design',2010,#21);
#21=APPLICATION_CONTEXT(
'core data for automotive mechanical design processes');
#22=SHAPE_REPRESENTATION('3D_1021010151001_WNP-M20_V1.0_stp-None',(#340),
#595);
#23=PRESENTATION_LAYER_ASSIGNMENT('1','Layer 1',(#32));
#24=STYLED_ITEM('',(#25),#32);
#25=PRESENTATION_STYLE_ASSIGNMENT((#26));
#26=SURFACE_STYLE_USAGE(.BOTH.,#27);
#27=SURFACE_SIDE_STYLE('',(#28));
#28=SURFACE_STYLE_FILL_AREA(#29);
#29=FILL_AREA_STYLE('',(#30));
#30=FILL_AREA_STYLE_COLOUR('',#31);
#31=COLOUR_RGB('medium steel',0.611764705882353,0.658823529411765,0.670588235294118);
#32=MANIFOLD_SOLID_BREP('\X2\501289D2\X0\1',#33);
#33=CLOSED_SHELL('',(#99,#100,#101,#102,#103,#104,#105,#106,#107,#108,#109,
#110,#111,#112,#113,#114,#115,#116,#117));
#34=CONICAL_SURFACE('',#377,11.4928932188135,45.0000000000001);
#35=FACE_OUTER_BOUND('',#150,.T.);
#36=FACE_OUTER_BOUND('',#151,.T.);
#37=FACE_OUTER_BOUND('',#152,.T.);
#38=FACE_OUTER_BOUND('',#153,.T.);
#39=FACE_OUTER_BOUND('',#154,.T.);
#40=FACE_OUTER_BOUND('',#155,.T.);
#41=FACE_OUTER_BOUND('',#156,.T.);
#42=FACE_OUTER_BOUND('',#157,.T.);
#43=FACE_OUTER_BOUND('',#158,.T.);
#44=FACE_OUTER_BOUND('',#159,.T.);
#45=FACE_OUTER_BOUND('',#160,.T.);
#46=FACE_OUTER_BOUND('',#161,.T.);
#47=B_SPLINE_CURVE_WITH_KNOTS('',3,(#516,#517,#518,#519,#520,#521),
 .UNSPECIFIED.,.F.,.F.,(4,2,4),(0.,0.5,1.),.UNSPECIFIED.);
#48=B_SPLINE_CURVE_WITH_KNOTS('',3,(#529,#530,#531,#532,#533,#534),
 .UNSPECIFIED.,.F.,.F.,(4,2,4),(0.,0.5,1.),.UNSPECIFIED.);
#49=B_SPLINE_CURVE_WITH_KNOTS('',3,(#542,#543,#544,#545,#546,#547),
 .UNSPECIFIED.,.F.,.F.,(4,2,4),(0.,0.5,1.),.UNSPECIFIED.);
#50=B_SPLINE_CURVE_WITH_KNOTS('',3,(#555,#556,#557,#558,#559,#560),
 .UNSPECIFIED.,.F.,.F.,(4,2,4),(0.,0.5,1.),.UNSPECIFIED.);
#51=B_SPLINE_CURVE_WITH_KNOTS('',3,(#568,#569,#570,#571,#572,#573),
 .UNSPECIFIED.,.F.,.F.,(4,2,4),(0.,0.5,1.),.UNSPECIFIED.);
#52=B_SPLINE_CURVE_WITH_KNOTS('',3,(#581,#582,#583,#584,#585,#586),
 .UNSPECIFIED.,.F.,.F.,(4,2,4),(0.,0.5,1.),.UNSPECIFIED.);
#53=LINE('',#487,#71);
#54=LINE('',#492,#72);
#55=LINE('',#496,#73);
#56=LINE('',#500,#74);
#57=LINE('',#504,#75);
#58=LINE('',#508,#76);
#59=LINE('',#512,#77);
#60=LINE('',#514,#78);
#61=LINE('',#525,#79);
#62=LINE('',#527,#80);
#63=LINE('',#538,#81);
#64=LINE('',#540,#82);
#65=LINE('',#551,#83);
#66=LINE('',#553,#84);
#67=LINE('',#564,#85);
#68=LINE('',#566,#86);
#69=LINE('',#577,#87);
#70=LINE('',#579,#88);
#71=VECTOR('',#398,1.);
#72=VECTOR('',#401,1.);
#73=VECTOR('',#404,1.);
#74=VECTOR('',#407,1.);
#75=VECTOR('',#410,1.);
#76=VECTOR('',#413,1.);
#77=VECTOR('',#418,1.);
#78=VECTOR('',#419,1.);
#79=VECTOR('',#424,1.);
#80=VECTOR('',#427,1.);
#81=VECTOR('',#432,1.);
#82=VECTOR('',#435,1.);
#83=VECTOR('',#440,1.);
#84=VECTOR('',#443,1.);
#85=VECTOR('',#448,1.);
#86=VECTOR('',#451,1.);
#87=VECTOR('',#456,1.);
#88=VECTOR('',#459,1.);
#89=PLANE('',#347);
#90=PLANE('',#356);
#91=PLANE('',#357);
#92=PLANE('',#360);
#93=PLANE('',#363);
#94=PLANE('',#366);
#95=PLANE('',#369);
#96=PLANE('',#372);
#97=PLANE('',#376);
#98=TOROIDAL_SURFACE('',#345,10.25,0.75);
#99=ADVANCED_FACE('NONE',(#126,#127),#118,.T.);
#100=ADVANCED_FACE('NONE',(#128,#129),#98,.T.);
#101=ADVANCED_FACE('NONE',(#130,#131),#89,.F.);
#102=ADVANCED_FACE('NONE',(#132,#133),#119,.F.);
#103=ADVANCED_FACE('NONE',(#134,#135),#90,.F.);
#104=ADVANCED_FACE('NONE',(#35),#91,.T.);
#105=ADVANCED_FACE('NONE',(#36),#120,.T.);
#106=ADVANCED_FACE('NONE',(#37),#92,.T.);
#107=ADVANCED_FACE('NONE',(#38),#121,.T.);
#108=ADVANCED_FACE('NONE',(#39),#93,.T.);
#109=ADVANCED_FACE('NONE',(#40),#122,.T.);
#110=ADVANCED_FACE('NONE',(#41),#94,.T.);
#111=ADVANCED_FACE('NONE',(#42),#123,.T.);
#112=ADVANCED_FACE('NONE',(#43),#95,.T.);
#113=ADVANCED_FACE('NONE',(#44),#124,.T.);
#114=ADVANCED_FACE('NONE',(#45),#96,.T.);
#115=ADVANCED_FACE('NONE',(#46),#125,.T.);
#116=ADVANCED_FACE('NONE',(#136,#137),#97,.F.);
#117=ADVANCED_FACE('NONE',(#138,#139),#34,.T.);
#118=CYLINDRICAL_SURFACE('',#343,10.2);
#119=CYLINDRICAL_SURFACE('',#349,8.7);
#120=CYLINDRICAL_SURFACE('',#359,12.2);
#121=CYLINDRICAL_SURFACE('',#362,12.2);
#122=CYLINDRICAL_SURFACE('',#365,12.2);
#123=CYLINDRICAL_SURFACE('',#368,12.2);
#124=CYLINDRICAL_SURFACE('',#371,12.2);
#125=CYLINDRICAL_SURFACE('',#374,12.2);
#126=FACE_BOUND('',#140,.T.);
#127=FACE_BOUND('',#141,.T.);
#128=FACE_BOUND('',#142,.T.);
#129=FACE_BOUND('',#143,.T.);
#130=FACE_BOUND('',#144,.T.);
#131=FACE_BOUND('',#145,.T.);
#132=FACE_BOUND('',#146,.T.);
#133=FACE_BOUND('',#147,.T.);
#134=FACE_BOUND('',#148,.T.);
#135=FACE_BOUND('',#149,.T.);
#136=FACE_BOUND('',#162,.T.);
#137=FACE_BOUND('',#163,.T.);
#138=FACE_BOUND('',#164,.T.);
#139=FACE_BOUND('',#165,.T.);
#140=EDGE_LOOP('',(#166));
#141=EDGE_LOOP('',(#167));
#142=EDGE_LOOP('',(#168));
#143=EDGE_LOOP('',(#169));
#144=EDGE_LOOP('',(#170));
#145=EDGE_LOOP('',(#171));
#146=EDGE_LOOP('',(#172));
#147=EDGE_LOOP('',(#173));
#148=EDGE_LOOP('',(#174));
#149=EDGE_LOOP('',(#175,#176,#177,#178,#179,#180,#181,#182,#183,#184,#185,
#186));
#150=EDGE_LOOP('',(#187,#188,#189,#190));
#151=EDGE_LOOP('',(#191,#192,#193,#194));
#152=EDGE_LOOP('',(#195,#196,#197,#198));
#153=EDGE_LOOP('',(#199,#200,#201,#202));
#154=EDGE_LOOP('',(#203,#204,#205,#206));
#155=EDGE_LOOP('',(#207,#208,#209,#210));
#156=EDGE_LOOP('',(#211,#212,#213,#214));
#157=EDGE_LOOP('',(#215,#216,#217,#218));
#158=EDGE_LOOP('',(#219,#220,#221,#222));
#159=EDGE_LOOP('',(#223,#224,#225,#226));
#160=EDGE_LOOP('',(#227,#228,#229,#230));
#161=EDGE_LOOP('',(#231,#232,#233,#234));
#162=EDGE_LOOP('',(#235));
#163=EDGE_LOOP('',(#236));
#164=EDGE_LOOP('',(#237,#238,#239,#240,#241,#242,#243,#244,#245,#246,#247,
#248));
#165=EDGE_LOOP('',(#249));
#166=ORIENTED_EDGE('',*,*,#280,.T.);
#167=ORIENTED_EDGE('',*,*,#281,.F.);
#168=ORIENTED_EDGE('',*,*,#281,.T.);
#169=ORIENTED_EDGE('',*,*,#282,.F.);
#170=ORIENTED_EDGE('',*,*,#280,.F.);
#171=ORIENTED_EDGE('',*,*,#283,.F.);
#172=ORIENTED_EDGE('',*,*,#283,.T.);
#173=ORIENTED_EDGE('',*,*,#284,.F.);
#174=ORIENTED_EDGE('',*,*,#282,.T.);
#175=ORIENTED_EDGE('',*,*,#285,.F.);
#176=ORIENTED_EDGE('',*,*,#286,.T.);
#177=ORIENTED_EDGE('',*,*,#287,.F.);
#178=ORIENTED_EDGE('',*,*,#288,.T.);
#179=ORIENTED_EDGE('',*,*,#289,.F.);
#180=ORIENTED_EDGE('',*,*,#290,.T.);
#181=ORIENTED_EDGE('',*,*,#291,.F.);
#182=ORIENTED_EDGE('',*,*,#292,.T.);
#183=ORIENTED_EDGE('',*,*,#293,.F.);
#184=ORIENTED_EDGE('',*,*,#294,.T.);
#185=ORIENTED_EDGE('',*,*,#295,.F.);
#186=ORIENTED_EDGE('',*,*,#296,.T.);
#187=ORIENTED_EDGE('',*,*,#297,.T.);
#188=ORIENTED_EDGE('',*,*,#285,.T.);
#189=ORIENTED_EDGE('',*,*,#298,.T.);
#190=ORIENTED_EDGE('',*,*,#299,.F.);
#191=ORIENTED_EDGE('',*,*,#297,.F.);
#192=ORIENTED_EDGE('',*,*,#300,.T.);
#193=ORIENTED_EDGE('',*,*,#301,.F.);
#194=ORIENTED_EDGE('',*,*,#286,.F.);
#195=ORIENTED_EDGE('',*,*,#302,.T.);
#196=ORIENTED_EDGE('',*,*,#287,.T.);
#197=ORIENTED_EDGE('',*,*,#301,.T.);
#198=ORIENTED_EDGE('',*,*,#303,.F.);
#199=ORIENTED_EDGE('',*,*,#302,.F.);
#200=ORIENTED_EDGE('',*,*,#304,.T.);
#201=ORIENTED_EDGE('',*,*,#305,.F.);
#202=ORIENTED_EDGE('',*,*,#288,.F.);
#203=ORIENTED_EDGE('',*,*,#306,.T.);
#204=ORIENTED_EDGE('',*,*,#289,.T.);
#205=ORIENTED_EDGE('',*,*,#305,.T.);
#206=ORIENTED_EDGE('',*,*,#307,.F.);
#207=ORIENTED_EDGE('',*,*,#306,.F.);
#208=ORIENTED_EDGE('',*,*,#308,.T.);
#209=ORIENTED_EDGE('',*,*,#309,.F.);
#210=ORIENTED_EDGE('',*,*,#290,.F.);
#211=ORIENTED_EDGE('',*,*,#310,.T.);
#212=ORIENTED_EDGE('',*,*,#291,.T.);
#213=ORIENTED_EDGE('',*,*,#309,.T.);
#214=ORIENTED_EDGE('',*,*,#311,.F.);
#215=ORIENTED_EDGE('',*,*,#310,.F.);
#216=ORIENTED_EDGE('',*,*,#312,.T.);
#217=ORIENTED_EDGE('',*,*,#313,.F.);
#218=ORIENTED_EDGE('',*,*,#292,.F.);
#219=ORIENTED_EDGE('',*,*,#314,.T.);
#220=ORIENTED_EDGE('',*,*,#293,.T.);
#221=ORIENTED_EDGE('',*,*,#313,.T.);
#222=ORIENTED_EDGE('',*,*,#315,.F.);
#223=ORIENTED_EDGE('',*,*,#314,.F.);
#224=ORIENTED_EDGE('',*,*,#316,.T.);
#225=ORIENTED_EDGE('',*,*,#317,.F.);
#226=ORIENTED_EDGE('',*,*,#294,.F.);
#227=ORIENTED_EDGE('',*,*,#318,.T.);
#228=ORIENTED_EDGE('',*,*,#295,.T.);
#229=ORIENTED_EDGE('',*,*,#317,.T.);
#230=ORIENTED_EDGE('',*,*,#319,.F.);
#231=ORIENTED_EDGE('',*,*,#298,.F.);
#232=ORIENTED_EDGE('',*,*,#296,.F.);
#233=ORIENTED_EDGE('',*,*,#318,.F.);
#234=ORIENTED_EDGE('',*,*,#320,.T.);
#235=ORIENTED_EDGE('',*,*,#284,.T.);
#236=ORIENTED_EDGE('',*,*,#321,.T.);
#237=ORIENTED_EDGE('',*,*,#304,.F.);
#238=ORIENTED_EDGE('',*,*,#303,.T.);
#239=ORIENTED_EDGE('',*,*,#300,.F.);
#240=ORIENTED_EDGE('',*,*,#299,.T.);
#241=ORIENTED_EDGE('',*,*,#320,.F.);
#242=ORIENTED_EDGE('',*,*,#319,.T.);
#243=ORIENTED_EDGE('',*,*,#316,.F.);
#244=ORIENTED_EDGE('',*,*,#315,.T.);
#245=ORIENTED_EDGE('',*,*,#312,.F.);
#246=ORIENTED_EDGE('',*,*,#311,.T.);
#247=ORIENTED_EDGE('',*,*,#308,.F.);
#248=ORIENTED_EDGE('',*,*,#307,.T.);
#249=ORIENTED_EDGE('',*,*,#321,.F.);
#250=VERTEX_POINT('',#474);
#251=VERTEX_POINT('',#476);
#252=VERTEX_POINT('',#479);
#253=VERTEX_POINT('',#482);
#254=VERTEX_POINT('',#485);
#255=VERTEX_POINT('',#488);
#256=VERTEX_POINT('',#489);
#257=VERTEX_POINT('',#491);
#258=VERTEX_POINT('',#493);
#259=VERTEX_POINT('',#495);
#260=VERTEX_POINT('',#497);
#261=VERTEX_POINT('',#499);
#262=VERTEX_POINT('',#501);
#263=VERTEX_POINT('',#503);
#264=VERTEX_POINT('',#505);
#265=VERTEX_POINT('',#507);
#266=VERTEX_POINT('',#509);
#267=VERTEX_POINT('',#513);
#268=VERTEX_POINT('',#515);
#269=VERTEX_POINT('',#524);
#270=VERTEX_POINT('',#528);
#271=VERTEX_POINT('',#537);
#272=VERTEX_POINT('',#541);
#273=VERTEX_POINT('',#550);
#274=VERTEX_POINT('',#554);
#275=VERTEX_POINT('',#563);
#276=VERTEX_POINT('',#567);
#277=VERTEX_POINT('',#576);
#278=VERTEX_POINT('',#580);
#279=VERTEX_POINT('',#591);
#280=EDGE_CURVE('',#250,#250,#322,.T.);
#281=EDGE_CURVE('NONE',#251,#251,#323,.T.);
#282=EDGE_CURVE('',#252,#252,#324,.T.);
#283=EDGE_CURVE('',#253,#253,#325,.T.);
#284=EDGE_CURVE('',#254,#254,#326,.T.);
#285=EDGE_CURVE('NONE',#255,#256,#53,.T.);
#286=EDGE_CURVE('NONE',#255,#257,#327,.T.);
#287=EDGE_CURVE('NONE',#258,#257,#54,.T.);
#288=EDGE_CURVE('NONE',#258,#259,#328,.T.);
#289=EDGE_CURVE('NONE',#260,#259,#55,.T.);
#290=EDGE_CURVE('NONE',#260,#261,#329,.T.);
#291=EDGE_CURVE('NONE',#262,#261,#56,.T.);
#292=EDGE_CURVE('NONE',#262,#263,#330,.T.);
#293=EDGE_CURVE('NONE',#264,#263,#57,.T.);
#294=EDGE_CURVE('NONE',#264,#265,#331,.T.);
#295=EDGE_CURVE('NONE',#266,#265,#58,.T.);
#296=EDGE_CURVE('NONE',#266,#256,#332,.T.);
#297=EDGE_CURVE('NONE',#267,#255,#59,.T.);
#298=EDGE_CURVE('NONE',#256,#268,#60,.T.);
#299=EDGE_CURVE('NONE',#267,#268,#47,.T.);
#300=EDGE_CURVE('',#267,#269,#333,.T.);
#301=EDGE_CURVE('NONE',#257,#269,#61,.T.);
#302=EDGE_CURVE('NONE',#270,#258,#62,.T.);
#303=EDGE_CURVE('',#270,#269,#48,.T.);
#304=EDGE_CURVE('',#270,#271,#334,.T.);
#305=EDGE_CURVE('NONE',#259,#271,#63,.T.);
#306=EDGE_CURVE('NONE',#272,#260,#64,.T.);
#307=EDGE_CURVE('',#272,#271,#49,.T.);
#308=EDGE_CURVE('',#272,#273,#335,.T.);
#309=EDGE_CURVE('NONE',#261,#273,#65,.T.);
#310=EDGE_CURVE('NONE',#274,#262,#66,.T.);
#311=EDGE_CURVE('',#274,#273,#50,.T.);
#312=EDGE_CURVE('',#274,#275,#336,.T.);
#313=EDGE_CURVE('NONE',#263,#275,#67,.T.);
#314=EDGE_CURVE('NONE',#276,#264,#68,.T.);
#315=EDGE_CURVE('',#276,#275,#51,.T.);
#316=EDGE_CURVE('',#276,#277,#337,.T.);
#317=EDGE_CURVE('NONE',#265,#277,#69,.T.);
#318=EDGE_CURVE('NONE',#278,#266,#70,.T.);
#319=EDGE_CURVE('NONE',#278,#277,#52,.T.);
#320=EDGE_CURVE('NONE',#278,#268,#338,.T.);
#321=EDGE_CURVE('NONE',#279,#279,#339,.T.);
#322=CIRCLE('',#341,10.2);
#323=CIRCLE('',#342,10.2);
#324=CIRCLE('',#344,10.6241657386774);
#325=CIRCLE('',#346,8.7);
#326=CIRCLE('',#348,8.7);
#327=CIRCLE('',#350,12.2);
#328=CIRCLE('',#351,12.2);
#329=CIRCLE('',#352,12.2);
#330=CIRCLE('',#353,12.2);
#331=CIRCLE('',#354,12.2);
#332=CIRCLE('',#355,12.2);
#333=CIRCLE('',#358,12.2);
#334=CIRCLE('',#361,12.2);
#335=CIRCLE('',#364,12.2);
#336=CIRCLE('',#367,12.2);
#337=CIRCLE('',#370,12.2);
#338=CIRCLE('',#373,12.2);
#339=CIRCLE('',#375,10.2857864376269);
#340=AXIS2_PLACEMENT_3D('',#472,#378,#379);
#341=AXIS2_PLACEMENT_3D('',#473,#380,#381);
#342=AXIS2_PLACEMENT_3D('',#475,#382,#383);
#343=AXIS2_PLACEMENT_3D('',#477,#384,#385);
#344=AXIS2_PLACEMENT_3D('',#478,#386,#387);
#345=AXIS2_PLACEMENT_3D('',#480,#388,#389);
#346=AXIS2_PLACEMENT_3D('',#481,#390,#391);
#347=AXIS2_PLACEMENT_3D('',#483,#392,#393);
#348=AXIS2_PLACEMENT_3D('',#484,#394,#395);
#349=AXIS2_PLACEMENT_3D('',#486,#396,#397);
#350=AXIS2_PLACEMENT_3D('',#490,#399,#400);
#351=AXIS2_PLACEMENT_3D('',#494,#402,#403);
#352=AXIS2_PLACEMENT_3D('',#498,#405,#406);
#353=AXIS2_PLACEMENT_3D('',#502,#408,#409);
#354=AXIS2_PLACEMENT_3D('',#506,#411,#412);
#355=AXIS2_PLACEMENT_3D('',#510,#414,#415);
#356=AXIS2_PLACEMENT_3D('',#511,#416,#417);
#357=AXIS2_PLACEMENT_3D('',#522,#420,#421);
#358=AXIS2_PLACEMENT_3D('',#523,#422,#423);
#359=AXIS2_PLACEMENT_3D('',#526,#425,#426);
#360=AXIS2_PLACEMENT_3D('',#535,#428,#429);
#361=AXIS2_PLACEMENT_3D('',#536,#430,#431);
#362=AXIS2_PLACEMENT_3D('',#539,#433,#434);
#363=AXIS2_PLACEMENT_3D('',#548,#436,#437);
#364=AXIS2_PLACEMENT_3D('',#549,#438,#439);
#365=AXIS2_PLACEMENT_3D('',#552,#441,#442);
#366=AXIS2_PLACEMENT_3D('',#561,#444,#445);
#367=AXIS2_PLACEMENT_3D('',#562,#446,#447);
#368=AXIS2_PLACEMENT_3D('',#565,#449,#450);
#369=AXIS2_PLACEMENT_3D('',#574,#452,#453);
#370=AXIS2_PLACEMENT_3D('',#575,#454,#455);
#371=AXIS2_PLACEMENT_3D('',#578,#457,#458);
#372=AXIS2_PLACEMENT_3D('',#587,#460,#461);
#373=AXIS2_PLACEMENT_3D('',#588,#462,#463);
#374=AXIS2_PLACEMENT_3D('',#589,#464,#465);
#375=AXIS2_PLACEMENT_3D('',#590,#466,#467);
#376=AXIS2_PLACEMENT_3D('',#592,#468,#469);
#377=AXIS2_PLACEMENT_3D('',#593,#470,#471);
#378=DIRECTION('',(0.,0.,1.));
#379=DIRECTION('',(1.,0.,0.));
#380=DIRECTION('',(0.,1.,0.));
#381=DIRECTION('',(0.,0.,1.));
#382=DIRECTION('',(0.,1.,0.));
#383=DIRECTION('',(0.,0.,1.));
#384=DIRECTION('',(0.,-1.,0.));
#385=DIRECTION('',(0.,0.,-1.));
#386=DIRECTION('',(0.,1.,0.));
#387=DIRECTION('',(0.,0.,-1.));
#388=DIRECTION('',(0.,1.,0.));
#389=DIRECTION('',(0.,0.,1.));
#390=DIRECTION('',(0.,-1.,0.));
#391=DIRECTION('',(0.,0.,1.));
#392=DIRECTION('',(0.,1.,0.));
#393=DIRECTION('',(0.,0.,1.));
#394=DIRECTION('',(0.,-1.,0.));
#395=DIRECTION('',(0.,0.,-1.));
#396=DIRECTION('',(0.,1.,0.));
#397=DIRECTION('',(0.,0.,1.));
#398=DIRECTION('',(-1.,0.,0.));
#399=DIRECTION('',(0.,-1.,0.));
#400=DIRECTION('',(0.,0.,1.));
#401=DIRECTION('',(-0.5,0.,-0.866025403784439));
#402=DIRECTION('',(0.,-1.,0.));
#403=DIRECTION('',(0.,0.,1.));
#404=DIRECTION('',(0.5,0.,-0.866025403784439));
#405=DIRECTION('',(0.,-1.,0.));
#406=DIRECTION('',(0.,0.,1.));
#407=DIRECTION('',(1.,0.,0.));
#408=DIRECTION('',(0.,-1.,0.));
#409=DIRECTION('',(0.,0.,1.));
#410=DIRECTION('',(0.5,0.,0.866025403784439));
#411=DIRECTION('',(0.,-1.,0.));
#412=DIRECTION('',(0.,0.,1.));
#413=DIRECTION('',(-0.5,0.,0.866025403784439));
#414=DIRECTION('',(0.,-1.,0.));
#415=DIRECTION('',(0.,0.,1.));
#416=DIRECTION('',(0.,1.,0.));
#417=DIRECTION('',(0.,0.,1.));
#418=DIRECTION('',(0.,-1.,0.));
#419=DIRECTION('',(0.,1.,0.));
#420=DIRECTION('',(0.,0.,-1.));
#421=DIRECTION('',(-1.,0.,0.));
#422=DIRECTION('',(0.,-1.,0.));
#423=DIRECTION('',(0.,0.,-1.));
#424=DIRECTION('',(0.,1.,0.));
#425=DIRECTION('',(0.,-1.,0.));
#426=DIRECTION('',(0.,0.,-1.));
#427=DIRECTION('',(0.,-1.,0.));
#428=DIRECTION('',(0.866025403784439,0.,-0.5));
#429=DIRECTION('',(-0.5,0.,-0.866025403784439));
#430=DIRECTION('',(0.,-1.,0.));
#431=DIRECTION('',(0.,0.,-1.));
#432=DIRECTION('',(0.,1.,0.));
#433=DIRECTION('',(0.,-1.,0.));
#434=DIRECTION('',(0.,0.,-1.));
#435=DIRECTION('',(0.,-1.,0.));
#436=DIRECTION('',(0.866025403784439,0.,0.5));
#437=DIRECTION('',(0.5,0.,-0.866025403784439));
#438=DIRECTION('',(0.,-1.,0.));
#439=DIRECTION('',(0.,0.,-1.));
#440=DIRECTION('',(0.,1.,0.));
#441=DIRECTION('',(0.,-1.,0.));
#442=DIRECTION('',(0.,0.,-1.));
#443=DIRECTION('',(0.,-1.,0.));
#444=DIRECTION('',(0.,0.,1.));
#445=DIRECTION('',(1.,0.,0.));
#446=DIRECTION('',(0.,-1.,0.));
#447=DIRECTION('',(0.,0.,-1.));
#448=DIRECTION('',(0.,1.,0.));
#449=DIRECTION('',(0.,-1.,0.));
#450=DIRECTION('',(0.,0.,-1.));
#451=DIRECTION('',(0.,-1.,0.));
#452=DIRECTION('',(-0.866025403784439,0.,0.5));
#453=DIRECTION('',(0.5,0.,0.866025403784439));
#454=DIRECTION('',(0.,-1.,0.));
#455=DIRECTION('',(0.,0.,-1.));
#456=DIRECTION('',(0.,1.,0.));
#457=DIRECTION('',(0.,-1.,0.));
#458=DIRECTION('',(0.,0.,-1.));
#459=DIRECTION('',(0.,-1.,0.));
#460=DIRECTION('',(-0.866025403784439,0.,-0.5));
#461=DIRECTION('',(-0.5,0.,0.866025403784439));
#462=DIRECTION('',(0.,-1.,0.));
#463=DIRECTION('',(0.,0.,-1.));
#464=DIRECTION('',(0.,-1.,0.));
#465=DIRECTION('',(0.,0.,-1.));
#466=DIRECTION('',(0.,1.,0.));
#467=DIRECTION('',(0.,0.,-0.999999999999999));
#468=DIRECTION('',(0.,-1.,0.));
#469=DIRECTION('',(0.,0.,-1.));
#470=DIRECTION('',(0.,-1.,0.));
#471=DIRECTION('',(0.,-4.11603123487658E-17,-1.));
#472=CARTESIAN_POINT('',(0.,0.,0.));
#473=CARTESIAN_POINT('',(46.4478611009785,79.8815931784635,112.108082834512));
#474=CARTESIAN_POINT('',(46.4478611009785,79.8815931784635,122.308082834512));
#475=CARTESIAN_POINT('',(46.4478611009785,86.4832617011087,112.108082834512));
#476=CARTESIAN_POINT('',(46.4478611009785,86.4832617011087,122.308082834512));
#477=CARTESIAN_POINT('',(46.4478611009785,88.3815931784635,112.108082834512));
#478=CARTESIAN_POINT('',(46.4478611009785,87.8815931784635,112.108082834512));
#479=CARTESIAN_POINT('',(46.4478611009785,87.8815931784635,101.483917095834));
#480=CARTESIAN_POINT('',(46.4478611009785,87.2315931784635,112.108082834512));
#481=CARTESIAN_POINT('',(46.4478611009785,79.8815931784635,112.108082834512));
#482=CARTESIAN_POINT('',(46.4478611009785,79.8815931784635,120.808082834512));
#483=CARTESIAN_POINT('',(36.4478611009785,79.8815931784635,112.108082834512));
#484=CARTESIAN_POINT('',(46.4478611009785,101.381593178463,112.108082834512));
#485=CARTESIAN_POINT('',(46.4478611009785,101.381593178463,103.408082834512));
#486=CARTESIAN_POINT('',(46.4478611009785,118.937028394239,112.108082834512));
#487=CARTESIAN_POINT('',(34.2478611009785,87.8815931784635,101.108082834512));
#488=CARTESIAN_POINT('',(51.7242234842876,87.8815931784635,101.108082834512));
#489=CARTESIAN_POINT('',(41.1714987176693,87.8815931784635,101.108082834512));
#490=CARTESIAN_POINT('',(46.4478611009785,87.8815931784635,112.108082834512));
#491=CARTESIAN_POINT('',(53.3359593509527,87.8815931784635,102.038618970993));
#492=CARTESIAN_POINT('',(52.9241405426073,87.8815931784635,101.325327871426));
#493=CARTESIAN_POINT('',(58.6123217342619,87.8815931784635,111.17754669803));
#494=CARTESIAN_POINT('',(46.4478611009785,87.8815931784635,112.108082834512));
#495=CARTESIAN_POINT('',(58.6123217342619,87.8815931784635,113.038618970993));
#496=CARTESIAN_POINT('',(52.9241405426073,87.8815931784635,122.890837797597));
#497=CARTESIAN_POINT('',(53.3359593509527,87.8815931784635,122.17754669803));
#498=CARTESIAN_POINT('',(46.4478611009785,87.8815931784635,112.108082834512));
#499=CARTESIAN_POINT('',(51.7242234842876,87.8815931784635,123.108082834512));
#500=CARTESIAN_POINT('',(34.2478611009785,87.8815931784635,123.108082834512));
#501=CARTESIAN_POINT('',(41.1714987176693,87.8815931784635,123.108082834512));
#502=CARTESIAN_POINT('',(46.4478611009785,87.8815931784635,112.108082834512));
#503=CARTESIAN_POINT('',(39.5597628510042,87.8815931784635,122.17754669803));
#504=CARTESIAN_POINT('',(33.8715816593497,87.8815931784635,112.325327871426));
#505=CARTESIAN_POINT('',(34.2834004676951,87.8815931784635,113.038618970993));
#506=CARTESIAN_POINT('',(46.4478611009785,87.8815931784635,112.108082834512));
#507=CARTESIAN_POINT('',(34.2834004676951,87.8815931784635,111.17754669803));
#508=CARTESIAN_POINT('',(33.8715816593497,87.8815931784635,111.890837797597));
#509=CARTESIAN_POINT('',(39.5597628510042,87.8815931784635,102.038618970993));
#510=CARTESIAN_POINT('',(46.4478611009785,87.8815931784635,112.108082834512));
#511=CARTESIAN_POINT('',(34.2478611009785,87.8815931784635,112.108082834512));
#512=CARTESIAN_POINT('',(51.7242234842876,98.3815931784635,101.108082834512));
#513=CARTESIAN_POINT('',(51.7242234842876,99.4673796160904,101.108082834512));
#514=CARTESIAN_POINT('',(41.1714987176693,98.3815931784635,101.108082834512));
#515=CARTESIAN_POINT('',(41.1714987176693,99.4673796160904,101.108082834512));
#516=CARTESIAN_POINT('',(51.7242234842876,99.4673796160904,101.108082834512));
#517=CARTESIAN_POINT('',(50.0613444011607,100.186556062173,101.108082834512));
#518=CARTESIAN_POINT('',(48.2853703281468,100.66690862767,101.108082834512));
#519=CARTESIAN_POINT('',(44.6159952236726,100.667849880707,101.108082834512));
#520=CARTESIAN_POINT('',(42.8350945107039,100.186866031123,101.108082834512));
#521=CARTESIAN_POINT('',(41.1714987176693,99.4673796160904,101.108082834512));
#522=CARTESIAN_POINT('',(52.7987140620644,91.3815931784635,101.108082834512));
#523=CARTESIAN_POINT('',(46.4478611009785,99.4673796160904,112.108082834512));
#524=CARTESIAN_POINT('',(53.3359593509527,99.4673796160904,102.038618970993));
#525=CARTESIAN_POINT('',(53.3359593509527,98.3815931784635,102.038618970993));
#526=CARTESIAN_POINT('',(46.4478611009785,98.3815931784635,112.108082834512));
#527=CARTESIAN_POINT('',(58.6123217342619,98.3815931784635,111.17754669803));
#528=CARTESIAN_POINT('',(58.6123217342619,99.4673796160904,111.17754669803));
#529=CARTESIAN_POINT('',(58.6123217342619,99.4673796160904,111.17754669803));
#530=CARTESIAN_POINT('',(57.7809289812862,100.1865155911,109.737532208831));
#531=CARTESIAN_POINT('',(56.8928524526376,100.666898136431,108.199338540203));
#532=CARTESIAN_POINT('',(55.0583133438541,100.667860339244,105.021823595318));
#533=CARTESIAN_POINT('',(54.1677635427958,100.186871476438,103.479346093214));
#534=CARTESIAN_POINT('',(53.3359593509527,99.4673796160904,102.038618970993));
#535=CARTESIAN_POINT('',(59.1495670231502,91.3815931784635,112.108082834512));
#536=CARTESIAN_POINT('',(46.4478611009785,99.4673796160904,112.108082834512));
#537=CARTESIAN_POINT('',(58.6123217342619,99.4673796160904,113.038618970993));
#538=CARTESIAN_POINT('',(58.6123217342619,98.3815931784635,113.038618970993));
#539=CARTESIAN_POINT('',(46.4478611009785,98.3815931784635,112.108082834512));
#540=CARTESIAN_POINT('',(53.3359593509527,98.3815931784635,122.17754669803));
#541=CARTESIAN_POINT('',(53.3359593509527,99.4673796160904,122.17754669803));
#542=CARTESIAN_POINT('',(53.3359593509527,99.4673796160904,122.17754669803));
#543=CARTESIAN_POINT('',(54.1673521039284,100.1865155911,120.737532208831));
#544=CARTESIAN_POINT('',(55.0554286325771,100.666898136431,119.199338540203));
#545=CARTESIAN_POINT('',(56.8899677413604,100.667860339244,116.021823595318));
#546=CARTESIAN_POINT('',(57.7805175424188,100.186871476438,114.479346093214));
#547=CARTESIAN_POINT('',(58.6123217342619,99.4673796160904,113.038618970993));
#548=CARTESIAN_POINT('',(52.7987140620644,91.3815931784635,123.108082834512));
#549=CARTESIAN_POINT('',(46.4478611009785,99.4673796160904,112.108082834512));
#550=CARTESIAN_POINT('',(51.7242234842876,99.4673796160904,123.108082834512));
#551=CARTESIAN_POINT('',(51.7242234842876,98.3815931784635,123.108082834512));
#552=CARTESIAN_POINT('',(46.4478611009785,98.3815931784635,112.108082834512));
#553=CARTESIAN_POINT('',(41.1714987176693,98.3815931784635,123.108082834512));
#554=CARTESIAN_POINT('',(41.1714987176693,99.4673796160904,123.108082834512));
#555=CARTESIAN_POINT('',(41.1714987176693,99.4673796160904,123.108082834512));
#556=CARTESIAN_POINT('',(42.8343778007963,100.186556062173,123.108082834512));
#557=CARTESIAN_POINT('',(44.6103518738102,100.66690862767,123.108082834512));
#558=CARTESIAN_POINT('',(48.2797269782843,100.667849880707,123.108082834512));
#559=CARTESIAN_POINT('',(50.0606276912531,100.186866031123,123.108082834512));
#560=CARTESIAN_POINT('',(51.7242234842877,99.4673796160904,123.108082834512));
#561=CARTESIAN_POINT('',(40.0970081398926,91.3815931784635,123.108082834512));
#562=CARTESIAN_POINT('',(46.4478611009785,99.4673796160904,112.108082834512));
#563=CARTESIAN_POINT('',(39.5597628510042,99.4673796160904,122.17754669803));
#564=CARTESIAN_POINT('',(39.5597628510042,98.3815931784635,122.17754669803));
#565=CARTESIAN_POINT('',(46.4478611009785,98.3815931784635,112.108082834512));
#566=CARTESIAN_POINT('',(34.2834004676951,98.3815931784635,113.038618970993));
#567=CARTESIAN_POINT('',(34.2834004676951,99.4673796160904,113.038618970993));
#568=CARTESIAN_POINT('',(34.2834004676951,99.4673796160904,113.038618970993));
#569=CARTESIAN_POINT('',(35.1147932206708,100.1865155911,114.478633460192));
#570=CARTESIAN_POINT('',(36.0028697493194,100.666898136431,116.016827128821));
#571=CARTESIAN_POINT('',(37.8374088581028,100.667860339244,119.194342073705));
#572=CARTESIAN_POINT('',(38.7279586591612,100.186871476438,120.736819575809));
#573=CARTESIAN_POINT('',(39.5597628510042,99.4673796160904,122.17754669803));
#574=CARTESIAN_POINT('',(33.7461551788067,91.3815931784635,112.108082834512));
#575=CARTESIAN_POINT('',(46.4478611009785,99.4673796160904,112.108082834512));
#576=CARTESIAN_POINT('',(34.2834004676951,99.4673796160904,111.17754669803));
#577=CARTESIAN_POINT('',(34.2834004676951,98.3815931784635,111.17754669803));
#578=CARTESIAN_POINT('',(46.4478611009785,98.3815931784635,112.108082834512));
#579=CARTESIAN_POINT('',(39.5597628510042,98.3815931784635,102.038618970993));
#580=CARTESIAN_POINT('',(39.5597628510042,99.4673796160904,102.038618970993));
#581=CARTESIAN_POINT('',(39.5597628510043,99.4673796160905,102.038618970993));
#582=CARTESIAN_POINT('',(38.727811853758,100.1869984598,103.479600367631));
#583=CARTESIAN_POINT('',(37.8406337779405,100.666663885189,105.016237870308));
#584=CARTESIAN_POINT('',(36.0068177823395,100.668093675263,108.192500346422));
#585=CARTESIAN_POINT('',(35.1139641860508,100.185798494857,109.738968138914));
#586=CARTESIAN_POINT('',(34.2834004676951,99.4673796160904,111.17754669803));
#587=CARTESIAN_POINT('',(40.0970081398926,91.3815931784635,101.108082834512));
#588=CARTESIAN_POINT('',(46.4478611009785,99.4673796160904,112.108082834512));
#589=CARTESIAN_POINT('',(46.4478611009785,98.3815931784635,112.108082834512));
#590=CARTESIAN_POINT('',(46.4478611009785,101.381593178463,112.108082834512));
#591=CARTESIAN_POINT('',(46.4478611009785,101.381593178463,101.822296396885));
#592=CARTESIAN_POINT('',(46.4478611009785,101.381593178463,112.108082834512));
#593=CARTESIAN_POINT('',(46.4478611009785,100.174486397277,112.108082834512));
#594=MECHANICAL_DESIGN_GEOMETRIC_PRESENTATION_REPRESENTATION('',(#24),#595);
#595=(
GEOMETRIC_REPRESENTATION_CONTEXT(3)
GLOBAL_UNCERTAINTY_ASSIGNED_CONTEXT((#596))
GLOBAL_UNIT_ASSIGNED_CONTEXT((#602,#598,#597))
REPRESENTATION_CONTEXT('3D_1021010151001_WNP-M20_V1',
'TOP_LEVEL_ASSEMBLY_PART')
);
#596=UNCERTAINTY_MEASURE_WITH_UNIT(LENGTH_MEASURE(0.0508),#602,
'DISTANCE_ACCURACY_VALUE','Maximum Tolerance applied to model');
#597=(
NAMED_UNIT(*)
SI_UNIT($,.STERADIAN.)
SOLID_ANGLE_UNIT()
);
#598=(
CONVERSION_BASED_UNIT('DEGREE',#600)
NAMED_UNIT(#599)
PLANE_ANGLE_UNIT()
);
#599=DIMENSIONAL_EXPONENTS(0.,0.,0.,0.,0.,0.,0.);
#600=PLANE_ANGLE_MEASURE_WITH_UNIT(PLANE_ANGLE_MEASURE(0.0174532925),#601);
#601=(
NAMED_UNIT(*)
PLANE_ANGLE_UNIT()
SI_UNIT($,.RADIAN.)
);
#602=(
LENGTH_UNIT()
NAMED_UNIT(*)
SI_UNIT(.MILLI.,.METRE.)
);
ENDSEC;
END-ISO-10303-21;
